Tablature for "Dancer"

I’ve been getting some requests for a tablature on my song Dancer recently, so…

Tuning: Drop D
Capo on 2nd fret

h  = Hammer on
/  = Slide up
\  = Slide down
PM = Palm mute

E|----------------------------------------------------------------
B|---------------0-------------------------------0----------------
G|-------3---------------3---------------3---------------3--------
D|---4-------4-------4-------4---4---4-------4-------4-------4---4
A|-----5-------5-------5-------5-------5-------5-------5-------5--
D|-0-------0-------0-------0-------0-------0-------0-------0------
           PM--------------|               PM--------------|

E|----------------------------------------------------------------
B|----------------------------------------------------------------
G|-------0---------------0---------------0------------------------
D|---0-------0---0---0-------0---0-0h1-------1---1/4-4---4\1-0---0
A|-----2-------2-------2-------2-------0-------0-------0-------0--
D|-2-------2-------2-------2-------0-------0-------0-------0------
           PM--------------|               PM--------------|
           
           
Repeat over and over and over again x)
Tim Hardenstedt